ISO-10303-21;
HEADER;
/* Generated by software containing ST-Developer
 * from STEP Tools, Inc. (www.steptools.com) 
 */

FILE_DESCRIPTION(
/* description */ (''),
/* implementation_level */ '2;1');

FILE_NAME(
/* name */ '',
/* time_stamp */ '2025-07-23T14:02:50+07:00',
/* author */ ('zeta-86'),
/* organization */ (''),
/* preprocessor_version */ 'ST-DEVELOPER v19.2',
/* originating_system */ 'Autodesk Inventor 2024',
/* authorisation */ '');

FILE_SCHEMA (('AUTOMOTIVE_DESIGN { 1 0 10303 214 3 1 1 }'));
ENDSEC;

DATA;
#10=MECHANICAL_DESIGN_GEOMETRIC_PRESENTATION_REPRESENTATION('',(#13),#468);
#11=SHAPE_REPRESENTATION_RELATIONSHIP('SRR','None',#475,#12);
#12=ADVANCED_BREP_SHAPE_REPRESENTATION('',(#14),#467);
#13=STYLED_ITEM('',(#484),#14);
#14=MANIFOLD_SOLID_BREP('\X2\04220432043504400434043E0435\X0\ \X2\04420435043B043E\X0\1',
#221);
#15=(
BOUNDED_CURVE()
B_SPLINE_CURVE(2,(#462,#463,#464),.UNSPECIFIED.,.F.,.F.)
B_SPLINE_CURVE_WITH_KNOTS((3,3),(1.27264879895935,1.34862398840788),
 .UNSPECIFIED.)
CURVE()
GEOMETRIC_REPRESENTATION_ITEM()
RATIONAL_B_SPLINE_CURVE((0.999999996487425,0.997378712711074,0.996198190066216))
REPRESENTATION_ITEM('')
);
#16=(
BOUNDED_SURFACE()
B_SPLINE_SURFACE(2,2,((#435,#436,#437,#438,#439,#440,#441,#442,#443),(#444,
#445,#446,#447,#448,#449,#450,#451,#452),(#453,#454,#455,#456,#457,#458,
#459,#460,#461)),.UNSPECIFIED.,.F.,.T.,.F.)
B_SPLINE_SURFACE_WITH_KNOTS((3,3),(3,2,2,2,3),(1.27264874805519,1.54910346423837),
(-3.14159265358979,-1.5707963267949,0.,1.5707963267949,3.14159265358979),
 .UNSPECIFIED.)
GEOMETRIC_REPRESENTATION_ITEM()
RATIONAL_B_SPLINE_SURFACE(((1.,0.707106781186548,1.,0.707106781186548,1.,
0.707106781186548,1.,0.707106781186548,1.),(0.990461800298816,0.700362255497529,
0.990461800298816,0.700362255497529,0.990461800298816,0.700362255497529,
0.990461800298816,0.700362255497529,0.990461800298816),(1.,0.707106781186548,
1.,0.707106781186548,1.,0.707106781186548,1.,0.707106781186548,1.)))
REPRESENTATION_ITEM('')
SURFACE()
);
#17=CONICAL_SURFACE('',#262,7.25,0.785398163397446);
#18=CONICAL_SURFACE('',#266,8.575,0.785398163397448);
#19=CONICAL_SURFACE('',#272,8.575,0.785398163397448);
#20=B_SPLINE_CURVE_WITH_KNOTS('',3,(#372,#373,#374,#375,#376,#377,#378,
#379,#380,#381),.UNSPECIFIED.,.F.,.F.,(4,2,2,2,4),(-10.7809231184041,-10.7260280140051,
-10.0705269354487,-9.4150258568923,-9.36013059978213),.UNSPECIFIED.);
#21=B_SPLINE_CURVE_WITH_KNOTS('',3,(#386,#387,#388,#389,#390,#391,#392,
#393,#394,#395),.UNSPECIFIED.,.F.,.F.,(4,2,2,2,4),(9.36013059908643,9.41502584133556,
10.0705269354439,10.7260280295522,10.7809231190902),.UNSPECIFIED.);
#22=B_SPLINE_CURVE_WITH_KNOTS('',3,(#399,#400,#401,#402),.UNSPECIFIED.,
 .F.,.F.,(4,4),(3.9629971254688,4.03291219544396),.UNSPECIFIED.);
#23=B_SPLINE_CURVE_WITH_KNOTS('',3,(#404,#405,#406,#407),.UNSPECIFIED.,
 .F.,.F.,(4,4),(4.03291219544396,4.10264372944765),.UNSPECIFIED.);
#24=LINE('',#365,#30);
#25=LINE('',#410,#31);
#26=LINE('',#419,#32);
#27=LINE('',#426,#33);
#28=LINE('',#428,#34);
#29=LINE('',#433,#35);
#30=VECTOR('',#298,8.15);
#31=VECTOR('',#317,7.25);
#32=VECTOR('',#328,8.575);
#33=VECTOR('',#337,9.);
#34=VECTOR('',#340,8.575);
#35=VECTOR('',#345,10.);
#36=CYLINDRICAL_SURFACE('',#253,8.15);
#37=CYLINDRICAL_SURFACE('',#260,42.7852347005115);
#38=CYLINDRICAL_SURFACE('',#269,9.);
#39=CYLINDRICAL_SURFACE('',#273,10.);
#40=TOROIDAL_SURFACE('',#249,8.9,0.75);
#41=FACE_BOUND('',#58,.T.);
#42=FACE_BOUND('',#67,.T.);
#43=FACE_OUTER_BOUND('',#57,.T.);
#44=FACE_OUTER_BOUND('',#59,.T.);
#45=FACE_OUTER_BOUND('',#60,.T.);
#46=FACE_OUTER_BOUND('',#61,.T.);
#47=FACE_OUTER_BOUND('',#62,.T.);
#48=FACE_OUTER_BOUND('',#63,.T.);
#49=FACE_OUTER_BOUND('',#64,.T.);
#50=FACE_OUTER_BOUND('',#65,.T.);
#51=FACE_OUTER_BOUND('',#66,.T.);
#52=FACE_OUTER_BOUND('',#68,.T.);
#53=FACE_OUTER_BOUND('',#69,.T.);
#54=FACE_OUTER_BOUND('',#70,.T.);
#55=FACE_OUTER_BOUND('',#71,.T.);
#56=FACE_OUTER_BOUND('',#72,.T.);
#57=EDGE_LOOP('',(#142));
#58=EDGE_LOOP('',(#143));
#59=EDGE_LOOP('',(#144));
#60=EDGE_LOOP('',(#145,#146,#147,#148,#149));
#61=EDGE_LOOP('',(#150,#151,#152,#153,#154,#155));
#62=EDGE_LOOP('',(#156,#157));
#63=EDGE_LOOP('',(#158,#159));
#64=EDGE_LOOP('',(#160,#161,#162,#163,#164));
#65=EDGE_LOOP('',(#165,#166,#167,#168));
#66=EDGE_LOOP('',(#169));
#67=EDGE_LOOP('',(#170));
#68=EDGE_LOOP('',(#171,#172,#173,#174,#175));
#69=EDGE_LOOP('',(#176,#177,#178,#179,#180,#181));
#70=EDGE_LOOP('',(#182,#183,#184,#185,#186,#187));
#71=EDGE_LOOP('',(#188,#189,#190,#191,#192));
#72=EDGE_LOOP('',(#193,#194,#195,#196,#197,#198,#199,#200,#201));
#73=CIRCLE('',#245,10.);
#74=CIRCLE('',#246,9.60710678118649);
#75=CIRCLE('',#248,7.);
#76=CIRCLE('',#250,8.15);
#77=CIRCLE('',#251,0.75);
#78=CIRCLE('',#252,8.15);
#79=CIRCLE('',#254,8.15);
#80=CIRCLE('',#255,8.15);
#81=CIRCLE('',#257,42.7852347005115);
#82=CIRCLE('',#259,42.7852347005115);
#83=CIRCLE('',#261,13.2112439254767);
#84=CIRCLE('',#263,7.5);
#85=CIRCLE('',#265,8.15);
#86=CIRCLE('',#267,9.);
#87=CIRCLE('',#268,9.);
#88=CIRCLE('',#270,9.);
#89=CIRCLE('',#271,9.);
#90=CIRCLE('',#274,10.);
#91=CIRCLE('',#275,10.);
#92=VERTEX_POINT('',#350);
#93=VERTEX_POINT('',#352);
#94=VERTEX_POINT('',#355);
#95=VERTEX_POINT('',#358);
#96=VERTEX_POINT('',#359);
#97=VERTEX_POINT('',#364);
#98=VERTEX_POINT('',#366);
#99=VERTEX_POINT('',#370);
#100=VERTEX_POINT('',#371);
#101=VERTEX_POINT('',#384);
#102=VERTEX_POINT('',#385);
#103=VERTEX_POINT('',#398);
#104=VERTEX_POINT('',#409);
#105=VERTEX_POINT('',#413);
#106=VERTEX_POINT('',#416);
#107=VERTEX_POINT('',#417);
#108=VERTEX_POINT('',#422);
#109=VERTEX_POINT('',#423);
#110=VERTEX_POINT('',#430);
#111=VERTEX_POINT('',#431);
#112=EDGE_CURVE('',#92,#92,#73,.T.);
#113=EDGE_CURVE('',#93,#93,#74,.T.);
#114=EDGE_CURVE('',#94,#94,#75,.T.);
#115=EDGE_CURVE('',#95,#96,#76,.T.);
#116=EDGE_CURVE('',#96,#93,#77,.T.);
#117=EDGE_CURVE('',#96,#95,#78,.T.);
#118=EDGE_CURVE('',#95,#97,#24,.T.);
#119=EDGE_CURVE('',#97,#98,#79,.T.);
#120=EDGE_CURVE('',#98,#97,#80,.T.);
#121=EDGE_CURVE('',#99,#100,#20,.T.);
#122=EDGE_CURVE('',#100,#99,#81,.T.);
#123=EDGE_CURVE('',#101,#102,#21,.T.);
#124=EDGE_CURVE('',#102,#101,#82,.T.);
#125=EDGE_CURVE('',#102,#103,#22,.T.);
#126=EDGE_CURVE('',#100,#101,#83,.T.);
#127=EDGE_CURVE('',#103,#99,#23,.T.);
#128=EDGE_CURVE('',#94,#104,#25,.T.);
#129=EDGE_CURVE('',#104,#104,#84,.T.);
#130=EDGE_CURVE('',#105,#105,#85,.T.);
#131=EDGE_CURVE('',#106,#107,#86,.T.);
#132=EDGE_CURVE('',#107,#105,#26,.T.);
#133=EDGE_CURVE('',#107,#106,#87,.T.);
#134=EDGE_CURVE('',#108,#109,#88,.T.);
#135=EDGE_CURVE('',#109,#108,#89,.T.);
#136=EDGE_CURVE('',#109,#106,#27,.T.);
#137=EDGE_CURVE('',#108,#98,#28,.T.);
#138=EDGE_CURVE('',#110,#111,#90,.T.);
#139=EDGE_CURVE('',#110,#92,#29,.T.);
#140=EDGE_CURVE('',#111,#110,#91,.T.);
#141=EDGE_CURVE('',#111,#103,#15,.T.);
#142=ORIENTED_EDGE('',*,*,#112,.F.);
#143=ORIENTED_EDGE('',*,*,#113,.T.);
#144=ORIENTED_EDGE('',*,*,#114,.F.);
#145=ORIENTED_EDGE('',*,*,#115,.T.);
#146=ORIENTED_EDGE('',*,*,#116,.T.);
#147=ORIENTED_EDGE('',*,*,#113,.F.);
#148=ORIENTED_EDGE('',*,*,#116,.F.);
#149=ORIENTED_EDGE('',*,*,#117,.T.);
#150=ORIENTED_EDGE('',*,*,#115,.F.);
#151=ORIENTED_EDGE('',*,*,#118,.T.);
#152=ORIENTED_EDGE('',*,*,#119,.T.);
#153=ORIENTED_EDGE('',*,*,#120,.T.);
#154=ORIENTED_EDGE('',*,*,#118,.F.);
#155=ORIENTED_EDGE('',*,*,#117,.F.);
#156=ORIENTED_EDGE('',*,*,#121,.F.);
#157=ORIENTED_EDGE('',*,*,#122,.F.);
#158=ORIENTED_EDGE('',*,*,#123,.F.);
#159=ORIENTED_EDGE('',*,*,#124,.F.);
#160=ORIENTED_EDGE('',*,*,#125,.F.);
#161=ORIENTED_EDGE('',*,*,#124,.T.);
#162=ORIENTED_EDGE('',*,*,#126,.F.);
#163=ORIENTED_EDGE('',*,*,#122,.T.);
#164=ORIENTED_EDGE('',*,*,#127,.F.);
#165=ORIENTED_EDGE('',*,*,#114,.T.);
#166=ORIENTED_EDGE('',*,*,#128,.T.);
#167=ORIENTED_EDGE('',*,*,#129,.T.);
#168=ORIENTED_EDGE('',*,*,#128,.F.);
#169=ORIENTED_EDGE('',*,*,#130,.F.);
#170=ORIENTED_EDGE('',*,*,#129,.F.);
#171=ORIENTED_EDGE('',*,*,#131,.T.);
#172=ORIENTED_EDGE('',*,*,#132,.T.);
#173=ORIENTED_EDGE('',*,*,#130,.T.);
#174=ORIENTED_EDGE('',*,*,#132,.F.);
#175=ORIENTED_EDGE('',*,*,#133,.T.);
#176=ORIENTED_EDGE('',*,*,#134,.F.);
#177=ORIENTED_EDGE('',*,*,#135,.F.);
#178=ORIENTED_EDGE('',*,*,#136,.T.);
#179=ORIENTED_EDGE('',*,*,#133,.F.);
#180=ORIENTED_EDGE('',*,*,#131,.F.);
#181=ORIENTED_EDGE('',*,*,#136,.F.);
#182=ORIENTED_EDGE('',*,*,#134,.T.);
#183=ORIENTED_EDGE('',*,*,#135,.T.);
#184=ORIENTED_EDGE('',*,*,#137,.T.);
#185=ORIENTED_EDGE('',*,*,#119,.F.);
#186=ORIENTED_EDGE('',*,*,#120,.F.);
#187=ORIENTED_EDGE('',*,*,#137,.F.);
#188=ORIENTED_EDGE('',*,*,#138,.F.);
#189=ORIENTED_EDGE('',*,*,#139,.T.);
#190=ORIENTED_EDGE('',*,*,#112,.T.);
#191=ORIENTED_EDGE('',*,*,#139,.F.);
#192=ORIENTED_EDGE('',*,*,#140,.F.);
#193=ORIENTED_EDGE('',*,*,#141,.T.);
#194=ORIENTED_EDGE('',*,*,#127,.T.);
#195=ORIENTED_EDGE('',*,*,#121,.T.);
#196=ORIENTED_EDGE('',*,*,#126,.T.);
#197=ORIENTED_EDGE('',*,*,#123,.T.);
#198=ORIENTED_EDGE('',*,*,#125,.T.);
#199=ORIENTED_EDGE('',*,*,#141,.F.);
#200=ORIENTED_EDGE('',*,*,#140,.T.);
#201=ORIENTED_EDGE('',*,*,#138,.T.);
#202=PLANE('',#244);
#203=PLANE('',#247);
#204=PLANE('',#256);
#205=PLANE('',#258);
#206=PLANE('',#264);
#207=ADVANCED_FACE('',(#43,#41),#202,.F.);
#208=ADVANCED_FACE('',(#44),#203,.F.);
#209=ADVANCED_FACE('',(#45),#40,.T.);
#210=ADVANCED_FACE('',(#46),#36,.T.);
#211=ADVANCED_FACE('',(#47),#204,.F.);
#212=ADVANCED_FACE('',(#48),#205,.T.);
#213=ADVANCED_FACE('',(#49),#37,.F.);
#214=ADVANCED_FACE('',(#50),#17,.F.);
#215=ADVANCED_FACE('',(#51,#42),#206,.T.);
#216=ADVANCED_FACE('',(#52),#18,.T.);
#217=ADVANCED_FACE('',(#53),#38,.T.);
#218=ADVANCED_FACE('',(#54),#19,.T.);
#219=ADVANCED_FACE('',(#55),#39,.T.);
#220=ADVANCED_FACE('',(#56),#16,.F.);
#221=CLOSED_SHELL('',(#207,#208,#209,#210,#211,#212,#213,#214,#215,#216,
#217,#218,#219,#220));
#222=DERIVED_UNIT_ELEMENT(#225,1.);
#223=DERIVED_UNIT_ELEMENT(#470,-3.);
#224=DIMENSIONAL_EXPONENTS(0.,1.,0.,0.,0.,0.,0.);
#225=(
CONVERSION_BASED_UNIT('gram',#227)
MASS_UNIT()
NAMED_UNIT(#224)
);
#226=(
MASS_UNIT()
NAMED_UNIT(*)
SI_UNIT(.KILO.,.GRAM.)
);
#227=MASS_MEASURE_WITH_UNIT(MASS_MEASURE(0.001),#226);
#228=DERIVED_UNIT((#222,#223));
#229=MEASURE_REPRESENTATION_ITEM('density measure',
POSITIVE_RATIO_MEASURE(1.),#228);
#230=PROPERTY_DEFINITION_REPRESENTATION(#235,#232);
#231=PROPERTY_DEFINITION_REPRESENTATION(#236,#233);
#232=REPRESENTATION('material name',(#234),#467);
#233=REPRESENTATION('density',(#229),#467);
#234=DESCRIPTIVE_REPRESENTATION_ITEM('\X2\04220438043F043E0432044B0435\X0\',
'\X2\04220438043F043E0432044B0435\X0\');
#235=PROPERTY_DEFINITION('material property','material name',#477);
#236=PROPERTY_DEFINITION('material property','density of part',#477);
#237=DATE_TIME_ROLE('creation_date');
#238=APPLIED_DATE_AND_TIME_ASSIGNMENT(#239,#237,(#477));
#239=DATE_AND_TIME(#240,#241);
#240=CALENDAR_DATE(2025,23,7);
#241=LOCAL_TIME(13,56,31.,#242);
#242=COORDINATED_UNIVERSAL_TIME_OFFSET(0,0,.BEHIND.);
#243=AXIS2_PLACEMENT_3D('',#348,#276,#277);
#244=AXIS2_PLACEMENT_3D('',#349,#278,#279);
#245=AXIS2_PLACEMENT_3D('',#351,#280,#281);
#246=AXIS2_PLACEMENT_3D('',#353,#282,#283);
#247=AXIS2_PLACEMENT_3D('',#354,#284,#285);
#248=AXIS2_PLACEMENT_3D('',#356,#286,#287);
#249=AXIS2_PLACEMENT_3D('',#357,#288,#289);
#250=AXIS2_PLACEMENT_3D('',#360,#290,#291);
#251=AXIS2_PLACEMENT_3D('',#361,#292,#293);
#252=AXIS2_PLACEMENT_3D('',#362,#294,#295);
#253=AXIS2_PLACEMENT_3D('',#363,#296,#297);
#254=AXIS2_PLACEMENT_3D('',#367,#299,#300);
#255=AXIS2_PLACEMENT_3D('',#368,#301,#302);
#256=AXIS2_PLACEMENT_3D('',#369,#303,#304);
#257=AXIS2_PLACEMENT_3D('',#382,#305,#306);
#258=AXIS2_PLACEMENT_3D('',#383,#307,#308);
#259=AXIS2_PLACEMENT_3D('',#396,#309,#310);
#260=AXIS2_PLACEMENT_3D('',#397,#311,#312);
#261=AXIS2_PLACEMENT_3D('',#403,#313,#314);
#262=AXIS2_PLACEMENT_3D('',#408,#315,#316);
#263=AXIS2_PLACEMENT_3D('',#411,#318,#319);
#264=AXIS2_PLACEMENT_3D('',#412,#320,#321);
#265=AXIS2_PLACEMENT_3D('',#414,#322,#323);
#266=AXIS2_PLACEMENT_3D('',#415,#324,#325);
#267=AXIS2_PLACEMENT_3D('',#418,#326,#327);
#268=AXIS2_PLACEMENT_3D('',#420,#329,#330);
#269=AXIS2_PLACEMENT_3D('',#421,#331,#332);
#270=AXIS2_PLACEMENT_3D('',#424,#333,#334);
#271=AXIS2_PLACEMENT_3D('',#425,#335,#336);
#272=AXIS2_PLACEMENT_3D('',#427,#338,#339);
#273=AXIS2_PLACEMENT_3D('',#429,#341,#342);
#274=AXIS2_PLACEMENT_3D('',#432,#343,#344);
#275=AXIS2_PLACEMENT_3D('',#434,#346,#347);
#276=DIRECTION('axis',(0.,0.,1.));
#277=DIRECTION('refdir',(1.,0.,0.));
#278=DIRECTION('center_axis',(0.,1.,0.));
#279=DIRECTION('ref_axis',(0.,0.,1.));
#280=DIRECTION('center_axis',(0.,1.,0.));
#281=DIRECTION('ref_axis',(1.,0.,0.));
#282=DIRECTION('center_axis',(-4.58669191013517E-16,1.,0.));
#283=DIRECTION('ref_axis',(0.,0.,-1.));
#284=DIRECTION('center_axis',(0.,1.,0.));
#285=DIRECTION('ref_axis',(0.,0.,1.));
#286=DIRECTION('center_axis',(0.,1.,0.));
#287=DIRECTION('ref_axis',(1.,0.,0.));
#288=DIRECTION('center_axis',(9.17338382027033E-16,-1.,0.));
#289=DIRECTION('ref_axis',(-1.01657312389512E-13,0.,-1.));
#290=DIRECTION('center_axis',(0.,1.,0.));
#291=DIRECTION('ref_axis',(-1.,0.,0.));
#292=DIRECTION('center_axis',(-1.,-9.17338382027033E-16,1.01530758469606E-13));
#293=DIRECTION('ref_axis',(1.01530758469606E-13,0.,1.));
#294=DIRECTION('center_axis',(0.,1.,0.));
#295=DIRECTION('ref_axis',(-1.,0.,0.));
#296=DIRECTION('center_axis',(0.,1.,0.));
#297=DIRECTION('ref_axis',(-1.,0.,0.));
#298=DIRECTION('',(0.,-1.,0.));
#299=DIRECTION('center_axis',(0.,1.,0.));
#300=DIRECTION('ref_axis',(1.,0.,0.));
#301=DIRECTION('center_axis',(0.,1.,0.));
#302=DIRECTION('ref_axis',(1.,0.,0.));
#303=DIRECTION('center_axis',(1.,0.,0.));
#304=DIRECTION('ref_axis',(0.,0.,-1.));
#305=DIRECTION('center_axis',(1.,0.,0.));
#306=DIRECTION('ref_axis',(0.,1.,0.));
#307=DIRECTION('center_axis',(1.,0.,0.));
#308=DIRECTION('ref_axis',(0.,0.,-1.));
#309=DIRECTION('center_axis',(-1.,0.,0.));
#310=DIRECTION('ref_axis',(0.,1.,0.));
#311=DIRECTION('center_axis',(1.,0.,0.));
#312=DIRECTION('ref_axis',(0.,-0.999999997033818,-7.70218394560343E-5));
#313=DIRECTION('center_axis',(0.,-0.984530646797213,0.175212458224468));
#314=DIRECTION('ref_axis',(-0.0567698245699272,0.174929891883663,0.982942887427275));
#315=DIRECTION('center_axis',(0.,-1.,0.));
#316=DIRECTION('ref_axis',(1.,0.,0.));
#317=DIRECTION('',(-0.707106781186546,-0.707106781186549,-8.65956056235491E-17));
#318=DIRECTION('center_axis',(0.,-1.,0.));
#319=DIRECTION('ref_axis',(1.,0.,0.));
#320=DIRECTION('center_axis',(0.,-1.,0.));
#321=DIRECTION('ref_axis',(0.,0.,-1.));
#322=DIRECTION('center_axis',(0.,1.,0.));
#323=DIRECTION('ref_axis',(1.,0.,0.));
#324=DIRECTION('center_axis',(0.,1.,0.));
#325=DIRECTION('ref_axis',(1.,0.,0.));
#326=DIRECTION('center_axis',(0.,-1.,0.));
#327=DIRECTION('ref_axis',(1.,0.,0.));
#328=DIRECTION('',(0.707106781186547,-0.707106781186548,-8.65956056235493E-17));
#329=DIRECTION('center_axis',(0.,-1.,0.));
#330=DIRECTION('ref_axis',(1.,0.,0.));
#331=DIRECTION('center_axis',(0.,1.,0.));
#332=DIRECTION('ref_axis',(-1.,0.,0.));
#333=DIRECTION('center_axis',(0.,1.,0.));
#334=DIRECTION('ref_axis',(1.,0.,0.));
#335=DIRECTION('center_axis',(0.,1.,0.));
#336=DIRECTION('ref_axis',(1.,0.,0.));
#337=DIRECTION('',(0.,-1.,0.));
#338=DIRECTION('center_axis',(0.,-1.,0.));
#339=DIRECTION('ref_axis',(1.,0.,0.));
#340=DIRECTION('',(0.707106781186547,0.707106781186548,8.65956056235493E-17));
#341=DIRECTION('center_axis',(0.,1.,0.));
#342=DIRECTION('ref_axis',(-1.,0.,0.));
#343=DIRECTION('center_axis',(0.,1.,0.));
#344=DIRECTION('ref_axis',(1.,0.,0.));
#345=DIRECTION('',(0.,-1.,0.));
#346=DIRECTION('center_axis',(0.,1.,0.));
#347=DIRECTION('ref_axis',(1.,0.,0.));
#348=CARTESIAN_POINT('',(0.,0.,0.));
#349=CARTESIAN_POINT('Origin',(2.59433957577699,2.50439398304176,1.11022302462516E-15));
#350=CARTESIAN_POINT('',(12.594339575777,2.50439398304176,-1.14423774522197E-16));
#351=CARTESIAN_POINT('Origin',(2.59433957577699,2.50439398304176,1.11022302462516E-15));
#352=CARTESIAN_POINT('',(2.59433957577699,2.50439398304176,9.60710678118649));
#353=CARTESIAN_POINT('Origin',(2.59433957577699,2.50439398304176,1.11022302462516E-15));
#354=CARTESIAN_POINT('Origin',(2.59433957577699,-2.99560601695825,1.11022302462516E-15));
#355=CARTESIAN_POINT('',(-4.40566042422302,-2.99560601695825,1.9674757840283E-15));
#356=CARTESIAN_POINT('Origin',(2.59433957577699,-2.99560601695825,1.11022302462516E-15));
#357=CARTESIAN_POINT('Origin',(2.59433957577699,2.25439398304159,1.11022302462516E-15));
#358=CARTESIAN_POINT('',(10.744339575777,2.25439398304159,1.12135883320064E-16));
#359=CARTESIAN_POINT('',(2.59433957577782,2.25439398304159,8.15));
#360=CARTESIAN_POINT('Origin',(2.59433957577699,2.25439398304159,1.11022302462516E-15));
#361=CARTESIAN_POINT('Origin',(2.59433957577789,2.25439398304159,8.9));
#362=CARTESIAN_POINT('Origin',(2.59433957577699,2.25439398304159,1.11022302462516E-15));
#363=CARTESIAN_POINT('Origin',(2.59433957577699,2.00439398304175,1.11022302462516E-15));
#364=CARTESIAN_POINT('',(10.744339575777,1.00439398304175,1.12135883320067E-16));
#365=CARTESIAN_POINT('',(10.744339575777,2.00439398304175,1.12135883320067E-16));
#366=CARTESIAN_POINT('',(-5.55566042422301,1.00439398304175,1.11022302462516E-15));
#367=CARTESIAN_POINT('Origin',(2.59433957577699,1.00439398304175,1.11022302462516E-15));
#368=CARTESIAN_POINT('Origin',(2.59433957577699,1.00439398304175,1.11022302462516E-15));
#369=CARTESIAN_POINT('Origin',(3.34433957577699,46.7896268574721,1.11022302462516E-15));
#370=CARTESIAN_POINT('',(3.34433957577699,4.66438684368302,-7.48601777706377));
#371=CARTESIAN_POINT('',(3.34433957577699,4.66438684368302,7.48601777706378));
#372=CARTESIAN_POINT('Ctrl Pts',(3.34433957577699,4.66438684370062,-7.48601777706774));
#373=CARTESIAN_POINT('Ctrl Pts',(3.34433957577699,4.70819953919273,-7.29162250363278));
#374=CARTESIAN_POINT('Ctrl Pts',(3.34433957577699,4.75032640440138,-7.09673424055599));
#375=CARTESIAN_POINT('Ctrl Pts',(3.34433957577699,5.2732464633685,-4.57010766540391));
#376=CARTESIAN_POINT('Ctrl Pts',(3.34433957581767,5.49639667077081,-2.18500442669341));
#377=CARTESIAN_POINT('Ctrl Pts',(3.34433957581767,5.49639677746703,2.18500276368268));
#378=CARTESIAN_POINT('Ctrl Pts',(3.34433957577699,5.27324668653202,4.57010601328986));
#379=CARTESIAN_POINT('Ctrl Pts',(3.34433957577699,4.75032663853286,7.096733157116));
#380=CARTESIAN_POINT('Ctrl Pts',(3.34433957577699,4.70819966086302,7.29162196342311));
#381=CARTESIAN_POINT('Ctrl Pts',(3.34433957577699,4.66438684360458,7.48601777704611));
#382=CARTESIAN_POINT('Origin',(3.34433957577699,46.7896268574721,1.11022302462516E-15));
#383=CARTESIAN_POINT('Origin',(1.84433957577699,46.7896268574721,1.11022302462516E-15));
#384=CARTESIAN_POINT('',(1.84433957577699,4.66438684368302,7.48601777706378));
#385=CARTESIAN_POINT('',(1.84433957577699,4.66438684368302,-7.48601777706377));
#386=CARTESIAN_POINT('Ctrl Pts',(1.84433957577699,4.66438684360006,7.48601777704507));
#387=CARTESIAN_POINT('Ctrl Pts',(1.84433957577699,4.70819964899276,7.29162201607144));
#388=CARTESIAN_POINT('Ctrl Pts',(1.84433957577699,4.75032661570253,7.09673326271598));
#389=CARTESIAN_POINT('Ctrl Pts',(1.84433957577699,5.27324667603131,4.57010612005146));
#390=CARTESIAN_POINT('Ctrl Pts',(1.84433957581767,5.49639678133059,2.18500281552236));
#391=CARTESIAN_POINT('Ctrl Pts',(1.84433957581767,5.49639667463437,-2.18500447853309));
#392=CARTESIAN_POINT('Ctrl Pts',(1.84433957577699,5.27324645286778,-4.57010777216552));
#393=CARTESIAN_POINT('Ctrl Pts',(1.84433957577699,4.75032638157106,-7.09673434615598));
#394=CARTESIAN_POINT('Ctrl Pts',(1.84433957577699,4.70819952732247,-7.29162255628111));
#395=CARTESIAN_POINT('Ctrl Pts',(1.84433957577699,4.66438684369611,-7.48601777706671));
#396=CARTESIAN_POINT('Origin',(1.84433957577699,46.7896268574721,1.11022302462516E-15));
#397=CARTESIAN_POINT('Origin',(2.59433957577699,46.7896268574721,1.11022302462516E-15));
#398=CARTESIAN_POINT('',(2.59433974485383,4.66811989654344,-7.50699405343385));
#399=CARTESIAN_POINT('Ctrl Pts',(1.84433957577502,4.66438684368905,-7.4860177770978));
#400=CARTESIAN_POINT('Ctrl Pts',(2.09364711678764,4.66686865439707,-7.49998339604995));
#401=CARTESIAN_POINT('Ctrl Pts',(2.34382889306421,4.66811989710528,-7.50699405658632));
#402=CARTESIAN_POINT('Ctrl Pts',(2.59433974485383,4.66811989654344,-7.50699405343385));
#403=CARTESIAN_POINT('Origin',(2.59433957577682,2.35334537215067,-5.49988047355038));
#404=CARTESIAN_POINT('Ctrl Pts',(2.59433974485383,4.66811989654344,-7.50699405343385));
#405=CARTESIAN_POINT('Ctrl Pts',(2.84419297372228,4.66811989598307,-7.50699405028966));
#406=CARTESIAN_POINT('Ctrl Pts',(3.09437308801648,4.66687521409213,-7.50002030869658));
#407=CARTESIAN_POINT('Ctrl Pts',(3.34433957577964,4.66438684369114,-7.48601777710956));
#408=CARTESIAN_POINT('Origin',(2.59433957577699,-3.24560601695825,1.11022302462516E-15));
#409=CARTESIAN_POINT('',(-4.90566042422301,-3.49560601695825,1.91737925264642E-16));
#410=CARTESIAN_POINT('',(-4.65566042422301,-3.24560601695825,2.22354095243329E-16));
#411=CARTESIAN_POINT('Origin',(2.59433957577699,-3.49560601695825,1.11022302462516E-15));
#412=CARTESIAN_POINT('Origin',(-6.40566042422301,-3.49560601695825,1.11022302462516E-15));
#413=CARTESIAN_POINT('',(-5.55566042422301,-3.49560601695825,2.10831016593025E-15));
#414=CARTESIAN_POINT('Origin',(2.59433957577699,-3.49560601695825,1.11022302462516E-15));
#415=CARTESIAN_POINT('Origin',(2.59433957577699,-3.07060601695825,1.11022302462516E-15));
#416=CARTESIAN_POINT('',(11.594339575777,-2.64560601695825,8.04090539253851E-18));
#417=CARTESIAN_POINT('',(-6.40566042422301,-2.64560601695825,2.21240514385778E-15));
#418=CARTESIAN_POINT('Origin',(2.59433957577699,-2.64560601695825,1.11022302462516E-15));
#419=CARTESIAN_POINT('',(-5.98066042422301,-3.07060601695825,2.16035765489402E-15));
#420=CARTESIAN_POINT('Origin',(2.59433957577699,-2.64560601695825,1.11022302462516E-15));
#421=CARTESIAN_POINT('Origin',(2.59433957577699,-1.24560601695825,1.11022302462516E-15));
#422=CARTESIAN_POINT('',(-6.40566042422301,0.154393983041755,2.21240514385777E-15));
#423=CARTESIAN_POINT('',(11.594339575777,0.154393983041755,8.04090539254233E-18));
#424=CARTESIAN_POINT('Origin',(2.59433957577699,0.154393983041755,1.11022302462516E-15));
#425=CARTESIAN_POINT('Origin',(2.59433957577699,0.154393983041755,1.11022302462516E-15));
#426=CARTESIAN_POINT('',(11.594339575777,-1.24560601695825,8.04090539254233E-18));
#427=CARTESIAN_POINT('Origin',(2.59433957577699,0.579393983041754,1.11022302462516E-15));
#428=CARTESIAN_POINT('',(-5.98066042422301,0.579393983041754,6.00883943563049E-17));
#429=CARTESIAN_POINT('Origin',(2.59433957577699,3.25439398304175,1.11022302462516E-15));
#430=CARTESIAN_POINT('',(12.594339575777,4.00439398304176,-1.14423774522193E-16));
#431=CARTESIAN_POINT('',(2.59433974147773,4.00439398310446,-9.99999999999999));
#432=CARTESIAN_POINT('Origin',(2.59433957577699,4.00439398304176,1.11022302462516E-15));
#433=CARTESIAN_POINT('',(12.594339575777,3.25439398304175,-1.14423774522193E-16));
#434=CARTESIAN_POINT('Origin',(2.59433957577699,4.00439398304176,1.11022302462516E-15));
#435=CARTESIAN_POINT('Ctrl Pts',(2.59433974147772,4.00439347631491,-10.0000016491272));
#436=CARTESIAN_POINT('Ctrl Pts',(-7.40566111257226,4.004393527181,-10.0000016491272));
#437=CARTESIAN_POINT('Ctrl Pts',(-7.40566111257226,4.00439377133671,-7.95077262701317E-7));
#438=CARTESIAN_POINT('Ctrl Pts',(-7.40566111257226,4.00439401549242,10.0000000589727));
#439=CARTESIAN_POINT('Ctrl Pts',(2.59433974147772,4.00439396462633,10.0000000589727));
#440=CARTESIAN_POINT('Ctrl Pts',(12.5943405955277,4.00439391376024,10.0000000589727));
#441=CARTESIAN_POINT('Ctrl Pts',(12.5943405955277,4.00439366960453,-7.95077260217468E-7));
#442=CARTESIAN_POINT('Ctrl Pts',(12.5943405955277,4.00439342544882,-10.0000016491272));
#443=CARTESIAN_POINT('Ctrl Pts',(2.59433974147772,4.00439347631491,-10.0000016491272));
#444=CARTESIAN_POINT('Ctrl Pts',(2.59433974854509,5.39379972454887,-5.4787807955755));
#445=CARTESIAN_POINT('Ctrl Pts',(-2.88444021803,5.39379975241728,-5.4787807955755));
#446=CARTESIAN_POINT('Ctrl Pts',(-2.88444021803001,5.39379988618481,-8.29000404729618E-7));
#447=CARTESIAN_POINT('Ctrl Pts',(-2.88444021803001,5.39380001995234,5.47877913757469));
#448=CARTESIAN_POINT('Ctrl Pts',(2.59433974854509,5.39379999208393,5.47877913757469));
#449=CARTESIAN_POINT('Ctrl Pts',(8.07311971512019,5.39379996421552,5.47877913757469));
#450=CARTESIAN_POINT('Ctrl Pts',(8.07311971512019,5.39379983044799,-8.29000402258549E-7));
#451=CARTESIAN_POINT('Ctrl Pts',(8.07311971512019,5.39379969668046,-5.4787807955755));
#452=CARTESIAN_POINT('Ctrl Pts',(2.59433974854509,5.39379972454887,-5.4787807955755));
#453=CARTESIAN_POINT('Ctrl Pts',(2.59433974906696,5.49639671149877,-0.750000658215385));
#454=CARTESIAN_POINT('Ctrl Pts',(1.84433992235694,5.49639671531373,-0.750000658215385));
#455=CARTESIAN_POINT('Ctrl Pts',(1.84433992235694,5.4963967336254,-8.31505364627204E-7));
#456=CARTESIAN_POINT('Ctrl Pts',(1.84433992235694,5.49639675193707,0.749998995204656));
#457=CARTESIAN_POINT('Ctrl Pts',(2.59433974906696,5.49639674812212,0.749998995204656));
#458=CARTESIAN_POINT('Ctrl Pts',(3.34433957577698,5.49639674430716,0.749998995204656));
#459=CARTESIAN_POINT('Ctrl Pts',(3.34433957577698,5.49639672599549,-8.31505364440915E-7));
#460=CARTESIAN_POINT('Ctrl Pts',(3.34433957577698,5.49639670768382,-0.750000658215385));
#461=CARTESIAN_POINT('Ctrl Pts',(2.59433974906696,5.49639671149877,-0.750000658215385));
#462=CARTESIAN_POINT('Ctrl Pts',(2.59433974147773,4.00439398310275,-10.0000000000056));
#463=CARTESIAN_POINT('Ctrl Pts',(2.59433974340651,4.38358199638385,-8.76609662217499));
#464=CARTESIAN_POINT('Ctrl Pts',(2.59433974485384,4.66811989654345,-7.50699405343385));
#465=UNCERTAINTY_MEASURE_WITH_UNIT(LENGTH_MEASURE(0.01),#469,
'DISTANCE_ACCURACY_VALUE',
'Maximum model space distance between geometric entities at asserted c
onnectivities');
#466=UNCERTAINTY_MEASURE_WITH_UNIT(LENGTH_MEASURE(0.01),#469,
'DISTANCE_ACCURACY_VALUE',
'Maximum model space distance between geometric entities at asserted c
onnectivities');
#467=(
GEOMETRIC_REPRESENTATION_CONTEXT(3)
GLOBAL_UNCERTAINTY_ASSIGNED_CONTEXT((#465))
GLOBAL_UNIT_ASSIGNED_CONTEXT((#469,#471,#472))
REPRESENTATION_CONTEXT('','3D')
);
#468=(
GEOMETRIC_REPRESENTATION_CONTEXT(3)
GLOBAL_UNCERTAINTY_ASSIGNED_CONTEXT((#466))
GLOBAL_UNIT_ASSIGNED_CONTEXT((#469,#471,#472))
REPRESENTATION_CONTEXT('','3D')
);
#469=(
LENGTH_UNIT()
NAMED_UNIT(*)
SI_UNIT(.MILLI.,.METRE.)
);
#470=(
LENGTH_UNIT()
NAMED_UNIT(*)
SI_UNIT(.CENTI.,.METRE.)
);
#471=(
NAMED_UNIT(*)
PLANE_ANGLE_UNIT()
SI_UNIT($,.RADIAN.)
);
#472=(
NAMED_UNIT(*)
SI_UNIT($,.STERADIAN.)
SOLID_ANGLE_UNIT()
);
#473=SHAPE_DEFINITION_REPRESENTATION(#474,#475);
#474=PRODUCT_DEFINITION_SHAPE('',$,#477);
#475=SHAPE_REPRESENTATION('',(#243),#467);
#476=PRODUCT_DEFINITION_CONTEXT('part definition',#481,'design');
#477=PRODUCT_DEFINITION('\X2\0414043504420430043B044C\X0\6',
'\X2\04170420\X0\1-\X2\041B0420\X0\-\X2\041C\X0\18\X2\0445\X0\1,5 (ze',
#478,#476);
#478=PRODUCT_DEFINITION_FORMATION('',$,#483);
#479=PRODUCT_RELATED_PRODUCT_CATEGORY('\X2\04170420\X0\1-\X2\041B0420\X0\-
\X2\041C\X0\18\X2\0445\X0\1,5 (ze','\X2\04170420\X0\1-\X2\041B0420\X0\-
\X2\041C\X0\18\X2\0445\X0\1,5 (ze',(#483));
#480=APPLICATION_PROTOCOL_DEFINITION('international standard',
'automotive_design',2009,#481);
#481=APPLICATION_CONTEXT(
'Core Data for Automotive Mechanical Design Process');
#482=PRODUCT_CONTEXT('part definition',#481,'mechanical');
#483=PRODUCT('\X2\0414043504420430043B044C\X0\6',
'\X2\04170420\X0\1-\X2\041B0420\X0\-\X2\041C\X0\18\X2\0445\X0\1,5 (ze',
$,(#482));
#484=PRESENTATION_STYLE_ASSIGNMENT((#485));
#485=SURFACE_STYLE_USAGE(.BOTH.,#488);
#486=SURFACE_STYLE_RENDERING_WITH_PROPERTIES($,#492,(#487));
#487=SURFACE_STYLE_TRANSPARENT(0.);
#488=SURFACE_SIDE_STYLE('',(#489,#486));
#489=SURFACE_STYLE_FILL_AREA(#490);
#490=FILL_AREA_STYLE('',(#491));
#491=FILL_AREA_STYLE_COLOUR('',#492);
#492=COLOUR_RGB('',0.749019607843137,0.749019607843137,0.749019607843137);
ENDSEC;
END-ISO-10303-21;
